Namo Namo, Kedarnath – Guitar Tabs and Chords

A powerful song in praise of the mighty Shiva from the movie Kedarnath.

Capo on 2, Original Key – E (But with Capo tabbed in Key of D). For the chords, follow the end verses’ chords.

Intro

e-----------------------------------
B-----------------------------------
G--0----2----0----3--2--------------
D--0----0----0----0-----------------
A-----------------------------------
E-----------------------------------

B------------5/7--5--3--2--0------------
G--0----2--------------------2------
D--0----0----0-------------0------------

[Pre-verse]

जय हो, जय हो, शंकरा (भोलेनाथ, शंकरा)
D--0--2--2--2----2--2--2h4-----
A--0-------------------0-------
आदिदेव, शंकरा (हे शिवाय, शंकरा)
D--2--2--4--5--4--2--0
A--0------------------
तेरे जाप के बिना (भोलेनाथ, शंकरा)
D--0--2--2--2----2--2--2h4-----
A--0-------------------0-------
चले ये साँस किस तरह? (हे शिवाय, शंकरा)
D--2--2--4--5--4--2--0
A--0------------------

[Verse Pattern-1]

मेरा कर्म तू ही जाने, क्या बुरा है, क्या भला
B--2/3--3--3--3----2--2--0--0-
G-----------------------------
D--0--------------------------

G--2--4--2--0----0--0--2--
D-------------------------
A--0-------------------0--

(क्या बुरा है, क्या भला, क्या बुरा है, क्या भला)
G--2--4--2--0----0--0--2--
D-------------------------
A--0-------------------0--


तेरे रास्ते पे मैं तो आँख मूँद के चला
B--2/3--3--3--5--3----2--2--0--0-
G-----------------------------
D--0--------------------------

G--2--4--2--0----0--0--4--2-
D---------------------------
A--0-------------------0----
(आँख मूँद के चला, आँख मूँद के चला)
G--2--4--2--0----0--0--4--2-
D---------------------------
A--0-------------------0----

तेरे नाम की जोत ने सारा हर लिया तमस मेरा
G--2--2--2h4--2----
D---------------4--
A--------0---------
(x2)

D-2--2--4--5--4--2--2--0--0-
A-0-----------------------0-

[Chorus]

नमो-नमो जी, शंकरा
भोलेनाथ, शंकरा
e-0--2--2--2----0--2--2-
B-3--3--3--3----3--3--3-
G-2---------------------
D-0-------------------0-
(x2)
जय त्रिलोकनाथ, शंभु
e-0--0--0--0--0--0--0
B-3--3--3--3--3--3--3
A-0------------------
हे शिवाय, शंकरा
e-0--0--0h2--2--0--0----
B-3--3--3----3--3--3--3-
G---------------------2-
D---------------------0-
A-------0---------------

नमो-नमो जी, शंकरा
भोलेनाथ, शंकरा
e-0--2--2--2----0--2--2-
B-3--3--3--3----3--3--3-
G-2---------------------
D-0-------------------0-
(x2)
रुद्रदेव, हे महेश्वरा
e-0--0--0h2--2--0--0----
B-3--3--3----3--3--3--3-
G---------------------2-
D---------------------0-
A-------0---------------

[Verse, Pattern-2]

सृष्टि के जनम से भी पहले तेरा वास था
ये जग रहे या ना रहे, रहेगी तेरी आस्था
G-2h4--4--4--2--0--0--2
A-0-------------------0

B----2--3--5--2--0----
G-4-----------------2-
A-0-----------------0-
(x2)
क्या समय? क्या प्रलय?
B-3-3/5--3--2----3--3/5--3--2-
A-0--------------0------------
दोनों में तेरी महानता, महानता, महानता
G-0--4--4--4----2h4--2--2-
A-0-------------0---------

G-2h4--2--2-
A-0---------

[Verse, Pattern-2]

[D] सीपियों की ओट में ([A] भोलेनाथ, शंकरा)
[D] मोतियाँ हो जिस तरह ([A] हे शिवाय, शंकरा)
[D] मेरे मन में, शंकरा ([A] भोलेनाथ, शंकरा)
[D] तू बसा है उस तरह ([A] हे शिवाय, शंकरा)

[Verse, Pattern-1] (use same tabs as above)

[D] मुझे भरम था जो है मेरा, था [Bm] कभी नहीं [D] मेरा
(था कभी नहीं मेरा, था कभी नहीं मेरा)
[D] अर्थ क्या, निरर्थ क्या, [Bm] जो भी है, सभी [A] तेरा
(जो भी है, सभी तेरा, जो भी है, सभी तेरा)
[G] तेरे सामने है [Em] झुका, [A] मेरे सर पे हाथ रख [D] तेरा

[Chorus] (use same tabs as above)

[D] नमो-नमो जी, शंकरा
[F#m] भोलेनाथ, शंकरा
[Em] जय त्रिलोकनाथ, शंभु
[G] हे शिवाय, [D] शंकरा
[D] नमो-नमो जी, शंकरा
[F#m] भोलेनाथ, शंकरा
[En] रुद्रदेव, हे [A] महेश्वरा [D]

[Sitar Interlude]

B-3--3--3--5/7--5--7----5--7
A-0--------0----------------

e-5----------------------------
B----7--5--3----3/5--3--5--3--5

e-5-5-5--2--------------------
B-----------5--5/7--5--7--5--7

e-5----------------------------
B----7--5--3----3/5--3--5--3--5

e-5-5-5--2-------
B-----------5--3-

e---------------------2-------
B-3--5--5--5--5----5-----5--3-

e---------------------2-------
B-3--5--5--5--5----5-----5--3-

B-3--5--7--7/10-

[Verse, Pattern-2]

[G] चंद्रमा ललाट [D] पे, [G] भस्म है [A] भुजाओं में
[G] वस्त्र बाघ-छाल [D] का, [G] है खड़ाऊँ [A] पाँव में
[A] प्यास क्या हो तुझे
[G] गंगा है तेरी जटाओं [D] में, [G] जटाओं [D] में, [G] जटाओं [D] में

[Pre-verse]

[D] दूसरों के वास्ते ([A] भोलेनाथ, [D] शंकरा)
[D] तू सदैव ही जिया ([A] हे शिवाय, [D] शंकरा)
[D] माँगा कुछ कभी नहीं ([A] भोलेनाथ, [D] शंकरा)
[D] तूने सिर्फ़ है दिया ([A] हे शिवाय, [D] शंकरा)

[Verse, Pattern-1]

[D] समुद्र मंथन का [Bm] था समय जो आ [A] पड़ा
(था समय जो आ पड़ा, था समय जो आ पड़ा)
[D] द्वंद्व दोनों लोक में [Bm] विषामृत पे था [A] छिड़ा
(विषामृत पे था छिड़ा, विषामृत पे था छिड़ा)
[G] अमृत सभी में [Em] बाँट के, [A] प्याला विष का तूने खुद [D] पिया

[Chorus]

नमो-नमो जी, शंकरा
भोलेनाथ, शंकरा
जय त्रिलोकनाथ, शंभु
हे शिवाय, शंकरा
नमो-नमो जी, शंकरा
भोलेनाथ, शंकरा
रुद्रदेव, हे महेश्वरा
नमो-नमो जी, शंकरा
भोलेनाथ, शंकरा
जय त्रिलोकनाथ, शंभु
हे शिवाय, शंकरा
नमो-नमो जी, शंकरा
भोलेनाथ, शंकरा
रुद्रदेव, हे महेश्वरा
रुद्रदेव, हे महेश्वरा
रुद्रदेव, हे महेश्वरा

Series Navigation« Mann Kasturi Re – Guitar chords and tabs

Leave a Reply

Your email address will not be published. Required fields are marked *

This site uses Akismet to reduce spam. Learn how your comment data is processed.