Tag Archives: featured

Monta Re – Guitar Intro, Tabs and Chords

This entry is part 38 of 39 in the series Guitar

Such a lovely and soothing song from the movie Lootera. Song is in the key of E.

Intro

Starts off with the A key

e|---0h2--2--0-----------------------------
B|-3------------3----2h3--2--0--0h3--3--3/5
G|-----------------------------------------
D|-----------------------------------------
A|-0-----------------0---------------------

(x2)

e|-4-5-------
B|---4-------
G|---4-------
D|---4-------

Now, simply with this B7 leading us to the key of E, where the next lick starts. I think its played in Mandolin. All the close notes are played tremolo-style.

B|-----------8--9-9-9-9----------------
G|-7---7--9----------------------------

e|-------------------------------------
B|----------7--------------------------
G|-9--8--9-----9-9-9--8----------------
D|-----------------------9--7----------

(x2)
Play the entire above 2 tabs twice after the B7 chord

D|-7--9-9-9-9--9-9-9-9-----------------

G|----------6--------------------------
D|-9--7--9-----9-9-9----7--6-----------
A|----------------------------9--------

e|-------------------------------------
B|-7-10-9-7---------------7------------
G|----------9---8-8-8--9---------------
D|-------------------------------------

e|-------------------------------------
B|-7-10-10-9-7---------------------7---
G|-------------9---8--9--8--6--8/9-----

B|---------7---------------------------
G|-8-8-8-9-----------------------------
D|-------------------------------------

e|-------------------------------------
B|-7-10-10-9-7-------------------------
G|-------------9---8--9--8--6--8/9-----

This finishes the intro, now simply strum E (D-D-U-D-U-D) once and below notes all in one go.
D|-4/6--6------------------------------
(x3)

Verse

For the following 2 lines, just strum downstroke once
[B] कागज़ के दो [A] पंख लेके, [B] उड़ा चला जाए रे
[B] जहाँ नहीं [A] जाना था ये, [E] वहीँ चला हाय रे

[B] उमर का ये [A] ताना-बाना समझ ना [F#m] पाए रे
[B] जुबां पे जो [A] मोह-माया, नमक [F#m] लगाये रे
[B] के देखे ना, भाले ना, [A] जाने ना दाये [B] रे

Optional Guitar tabs played for 2nd part of verse

The following is optional and actually played in the song parallel to the rhythm guitar during उमर का … In the song its played along with the vocals.
G|--------------4-4-4-4-4-4------------
D|-1-1-1--2--4-------------------------

e|-------------------------------------
B|----------2--------------------------
G|-4--2--4-----4-4-4--2----------------
D|-----------------------4--2----------

Play the above twice, the second time for जुबां पे…

Verse (contd.)

दिशा हारा कैमोन बोका, मोन्टा [E] रे!

For the above line, below lick can be played leading to ending in E chord on रे!
G|-2--------------------------2--------
D|---4----2-1---1-1-1-2--4------4--2---

The ending E of मोन्टा रे – (D-D-U-D-U-D) and
D|-4/6--6------------------------------
(x4)

Repeat the entire verse again;

Continue reading Monta Re – Guitar Intro, Tabs and Chords

Namo Namo, Kedarnath – Guitar Tabs and Chords

This entry is part 37 of 39 in the series Guitar

A powerful song in praise of the mighty Shiva from the movie Kedarnath.

Capo on 2, Original Key – E (But with Capo tabbed in Key of D). For the chords, follow the end verses’ chords.

Intro

e-----------------------------------
B-----------------------------------
G--0----2----0----3--2--------------
D--0----0----0----0-----------------
A-----------------------------------
E-----------------------------------

B------------5/7--5--3--2--0------------
G--0----2--------------------2------
D--0----0----0-------------0------------

[Pre-verse]

जय हो, जय हो, शंकरा (भोलेनाथ, शंकरा)
D--0--2--2--2----2--2--2h4-----
A--0-------------------0-------
आदिदेव, शंकरा (हे शिवाय, शंकरा)
D--2--2--4--5--4--2--0
A--0------------------
तेरे जाप के बिना (भोलेनाथ, शंकरा)
D--0--2--2--2----2--2--2h4-----
A--0-------------------0-------
चले ये साँस किस तरह? (हे शिवाय, शंकरा)
D--2--2--4--5--4--2--0
A--0------------------

[Verse Pattern-1]

मेरा कर्म तू ही जाने, क्या बुरा है, क्या भला
B--2/3--3--3--3----2--2--0--0-
G-----------------------------
D--0--------------------------

G--2--4--2--0----0--0--2--
D-------------------------
A--0-------------------0--

(क्या बुरा है, क्या भला, क्या बुरा है, क्या भला)
G--2--4--2--0----0--0--2--
D-------------------------
A--0-------------------0--

तेरे रास्ते पे मैं तो आँख मूँद के चला
B--2/3--3--3--5--3----2--2--0--0-
G-----------------------------
D--0--------------------------

G--2--4--2--0----0--0--4--2-
D---------------------------
A--0-------------------0----
(आँख मूँद के चला, आँख मूँद के चला)
G--2--4--2--0----0--0--4--2-
D---------------------------
A--0-------------------0----

तेरे नाम की जोत ने सारा हर लिया तमस मेरा
G--2--2--2h4--2----
D---------------4--
A--------0---------
(x2)

D-2--2--4--5--4--2--2--0--0-
A-0-----------------------0-

[Chorus]

नमो-नमो जी, शंकरा
भोलेनाथ, शंकरा
e-0--2--2--2----0--2--2-
B-3--3--3--3----3--3--3-
G-2---------------------
D-0-------------------0-
(x2)
जय त्रिलोकनाथ, शंभु
e-0--0--0--0--0--0--0
B-3--3--3--3--3--3--3
A-0------------------
हे शिवाय, शंकरा
e-0--0--0h2--2--0--0----
B-3--3--3----3--3--3--3-
G---------------------2-
D---------------------0-
A-------0---------------

नमो-नमो जी, शंकरा
भोलेनाथ, शंकरा
e-0--2--2--2----0--2--2-
B-3--3--3--3----3--3--3-
G-2---------------------
D-0-------------------0-
(x2)
रुद्रदेव, हे महेश्वरा
e-0--0--0h2--2--0--0----
B-3--3--3----3--3--3--3-
G---------------------2-
D---------------------0-
A-------0---------------

[Verse, Pattern-2]

सृष्टि के जनम से भी पहले तेरा वास था
ये जग रहे या ना रहे, रहेगी तेरी आस्था
G-2h4--4--4--2--0--0--2
A-0-------------------0

B----2--3--5--2--0----
G-4-----------------2-
A-0-----------------0-
(x2)
क्या समय? क्या प्रलय?
B-3-3/5--3--2----3--3/5--3--2-
A-0--------------0------------
दोनों में तेरी महानता, महानता, महानता
G-0--4--4--4----2h4--2--2-
A-0-------------0---------

G-2h4--2--2-
A-0---------

Continue reading Namo Namo, Kedarnath – Guitar Tabs and Chords

BMW 310 GS Trophy 2020

March 15, 2020

अरे कशाला जायचं अश्या जागी बईक ने ? रस्ता आहे ना ? चालवा न तिकडे !

Kanade’s words echoed…

Just the earlier Sunday I had been to Kamshet’s Slope of Hell with 3 others. What we ended up doing there was dragging our motorbikes through the rocky steep incline and when our bikes got stuck pushed with help of each other. We managed to scale less than half of the road with our bikes, rest we ended up trekking all the way to the top. By the time we reached down, 3 bikes and 4 lads were tired. It was my 2nd trip to Slope of Hell and the first offroad encounter for others. It was then Kanade had uttered the words of wisdom.

Rewind a few more weeks back… I had got a call from BMW Sales about holding a GS Trophy specifically for 310GS owners. I wasn’t quite sure about it as I couldn’t really find a relaxing weekend for few months AND I had no experience in such competitions! I dilly-dallied till Devendra said, do its just ₹2k, or else u’ll rue the missed chance for your whole life. I managed to book a ticket just few days earlier and I woke up at 5am on 15th for the 7am reporting time at Royal Palms, Aarey Colony, Goregaon, Mumbai.

The venue

the bikes
the bikes

The road to the place was quite an offroad section. Event was held in an adventure park that was specifically created for offroad activities for ATVs, motocross, etc. As I reached there a lot of the 310s were already there, with the enduro-ready clan with their high ankle boots, heavily armoured body gear, high-visibility pants and shirts were enjoying the morning with tea, biscuits and samosas. I on the other hand had managed to borrow everything except for my 310 and the helmet. In a simple pair of worn out denims and a blue round-neck T-shirt I looked more like an event-helper than a participant.

Continue reading BMW 310 GS Trophy 2020