green-leafed trees

Monta Re – Guitar Intro, Tabs and Chords

This entry is part 38 of 38 in the series Guitar

Such a lovely and soothing song from the movie Lootera. Song is in the key of E.

Intro

Starts off with the A key

e|---0h2--2--0-----------------------------
B|-3------------3----2h3--2--0--0h3--3--3/5
G|-----------------------------------------
D|-----------------------------------------
A|-0-----------------0---------------------

(x2)

e|-4-5-------
B|---4-------
G|---4-------
D|---4-------

Now, simply with this B7 leading us to the key of E, where the next lick starts. I think its played in Mandolin. All the close notes are played tremolo-style.

B|-----------8--9-9-9-9----------------
G|-7---7--9----------------------------

e|-------------------------------------
B|----------7--------------------------
G|-9--8--9-----9-9-9--8----------------
D|-----------------------9--7----------

(x2)
Play the entire above 2 tabs twice after the B7 chord

D|-7--9-9-9-9--9-9-9-9-----------------

G|----------6--------------------------
D|-9--7--9-----9-9-9----7--6-----------
A|----------------------------9--------

e|-------------------------------------
B|-7-10-9-7---------------7------------
G|----------9---8-8-8--9---------------
D|-------------------------------------

e|-------------------------------------
B|-7-10-10-9-7---------------------7---
G|-------------9---8--9--8--6--8/9-----

B|---------7---------------------------
G|-8-8-8-9-----------------------------
D|-------------------------------------

e|-------------------------------------
B|-7-10-10-9-7-------------------------
G|-------------9---8--9--8--6--8/9-----

This finishes the intro, now simply strum E (D-D-U-D-U-D) once and below notes all in one go.
D|-4/6--6------------------------------
(x3)

Verse

For the following 2 lines, just strum downstroke once
[B] कागज़ के दो [A] पंख लेके, [B] उड़ा चला जाए रे
[B] जहाँ नहीं [A] जाना था ये, [E] वहीँ चला हाय रे

[B] उमर का ये [A] ताना-बाना समझ ना [F#m] पाए रे
[B] जुबां पे जो [A] मोह-माया, नमक [F#m] लगाये रे
[B] के देखे ना, भाले ना, [A] जाने ना दाये [B] रे

Optional Guitar tabs played for 2nd part of verse

The following is optional and actually played in the song parallel to the rhythm guitar during उमर का … In the song its played along with the vocals.
G|--------------4-4-4-4-4-4------------
D|-1-1-1--2--4-------------------------

e|-------------------------------------
B|----------2--------------------------
G|-4--2--4-----4-4-4--2----------------
D|-----------------------4--2----------

Play the above twice, the second time for जुबां पे…

Verse (contd.)

दिशा हारा कैमोन बोका, मोन्टा [E] रे!

For the above line, below lick can be played leading to ending in E chord on रे!
G|-2--------------------------2--------
D|---4----2-1---1-1-1-2--4------4--2---

The ending E of मोन्टा रे – (D-D-U-D-U-D) and
D|-4/6--6------------------------------
(x4)

Repeat the entire verse again;

Interlude

The close same notes are played Mandolin-tremolo style.

e|----------------7-7-7-7-7-7-7-7------
B|----7--10-10-------------------------
G|-9-----------------------------------

e|-7--9--7-7-7-7-7-7-7-7---------------
B|-------------------------------------

e|-7--9--12--11--9--7------------------
B|---------------------10--9--7--------

B|-7-7-7-7----7--9--7------------------
G|---------------------9---------------

[B] फ़तेह करे [E] किले सारे, [A] भेद जाए [B] दीवारें
[B] प्रेम कोई [A] सेंध ला[B]गे
[B] अगर मगर [E] बारी बारी, [A] जिया को यूँ उछा[B]ले
[B] जिया नहीं [A] गेंद ला[B]गे
[B] माटी को ये [A] चंदन सा, माथे पे स[F#m]जाये रे
[B] जुबां पे जो [A] मोह-माया नमक लगाए [F#m] रे
[B] के देखे ना, भाले ना, [A] जाने ना दाये [B] रे

G|-2--------------------------2--------
D|---4----2-1---1-1-1-2--4------4--2---

दिशा हारा कैमोन बोका, मोन्टा [E] रे!

Outro

Keep Strumming … [E]

e|-12--14--14/16-----------------------
B|-12----------------------------------

Keep Strumming … [E]

B|-14/12---9---------------------------

Keep Strumming … [E]

e|-------12---14--12---11--9-----------
B|-10/12---------------------12--10----

Keep Strumming … [E]

B|-10--12/14---------------------------

Keep Strumming … [E]

B|-14/12----9--------------------------

Series Navigation« Namo Namo, Kedarnath – Guitar Tabs and Chords

Leave a Reply

Your email address will not be published. Required fields are marked *

This site uses Akismet to reduce spam. Learn how your comment data is processed.