Tu kisi rail si guzarti hai tabs and chords

The song is in the key of F.
Capo on 3rd Fret

Intro Lick

-----------------------e
-----------3----3------B
--------2---------2----G
--0-0---------------0--D
-----------------------A
-----------------------E

(x2)

Chords / Song

[D] Tu kisi rail si guzarti [G] hai
[D] Tu kisi rail si guzarti [G] hai
Main kisi [Em] pull sa.. thartharata [D] hoon

[D] Tu bhale ratti bhar na sunti [G] hai
Main tera naam budbudata [D] hoon
[D] Kisi lambe safar ki raaton [G] mein
Tujhe alaav sa jalaata [D] hoon

[D] Tu kisi rail si guzarti [G] hai
Main kisi [Em] pull sa.. thartharata [D] hoon

Intra song lick
--------------------------e
--1/3--1--0---------------B
--------------2--0--------G
-------------------4-2----D
--0--------------------0--A

(x2)

---------0--------------------D
--3-3----0--------------------A

(x2)

-----------------------------------e
--1/3--1--0------------------------B
--------------2--0-----------------G
-------------------4-2----------0--D
--0--------------------0--3--3--0--A

(x2), Just above 2 licks in one go.

 

This starts in the higher octave
[D] Kaath ke taale hai
Aankh pe daale hai
[G] Unmein isharon ki chabiyaan [D] laga
(x2)

[D] Raat jo baaqi hain
Shaam se taaki hain
[G] Neeyat mein thodi … [continue strumming G along the extended thodi..]
[G] Neeyat mein thodi kharabiyaan [D] lagaa
Kharabiyaan lagaa

[D] Main hoon paani ke bulbule [G] jaisa strum G just once
[Em, flamenco style] Tujhe sochun toh …
[D] phoot jaata hoon

Tu kisi rail si guzarti hai
Main kisi pull sa.. thartharata hoon (x2)

Thartharata hoon…
Thartharata hoon…

Strumming Pattern

D--D--U--D--U

Series Navigation« Manjha – Kai Po Che – Guitar finger picking tabs, chords

One thought on “Tu kisi rail si guzarti hai tabs and chords”

Leave a Reply

Your email address will not be published. Required fields are marked *

This site uses Akismet to reduce spam. Learn how your comment data is processed.