Manjha – Kai Po Che – Guitar finger picking tabs, chords

After a really long time this song came back on my ears, stuck for a long time and I had to get something beautiful for my guitar.  So here it is, Manjha by Amit Trivedi from Kai Po Che. The song is in the key of D.

Guitar Intro riff (4x)

e|-0--0------------|
B|-------3-----3---|
G|----------2------|
D|-------------0---|
A|-0--0------------|

Sarangi / Violin Intro (on Guitar, 2x)

E|--2--0--------------2--0-----------
B|--------3---2h3-----------3---2h3--
G|-----------------------------------
D|-----------------------------------
A|--0---------0h------0--------------

e|-2--0-----------------------
B|-------3---2h-3p-2h-3p-2h3--
G|----------------------------
D|----------------------------
A|-0--------------------------

Song begins…

Roothe khwaabon ko mana lenge..

E|-----0--2--0-----------------
B|--3-----------3--2---2h3--3--
G|-----------------------------
D|--0--------------------------
A|-----------------0---0-------
E|-----------------------------

Kati patango ko thaamenge…
(same as above pattern)

Haa haa hai jazba

E|--0--0--------0--
B|--------3--------
G|-----------2-----
D|-----------------
A|--0--0--------0--
E|-----------------

Ho ho hai jazba
(same as above pattern)

Suljha lenge uljhe Rishton ka Manjha

E|-----2--0--3--2--0-----------------
B|--3-----------------3---------h3--
G|-----------------------2--2--------
D|--0--------------------------------
A|-----------------------0--0--------

Ha manjha ha manjha ha manjha..

E|-----------------------------------
B|--3--3--3-----3-----3--3--3-----3--
G|-----------2-----------------2-----
D|-----------------------------------
A|--------------0-----------------0--

Soyi Taqdire… (all same pattern begining from roothe…)
Till … ha manjha

Violin part comes in again…

Rishte pankho ko hawa denge

E|--------------------------
B|--------------------------
G|--4--2--4--2--------------
D|--0-----------4---2h4--4--
A|------------------0h------

Rishte dard ko dawa denge
(above pattern continued…)

Jeet kabhi Haar kabhi

E|--------------------------
B|-----------3-----------3--
G|--0--0--0-----0--0--0-----
D|-----------2-----------0--

Ghum to yaaro honge do pal ke mehmaan

G|--------2-----------------------------
D|--2--4-----4--2--------0--0-----0--0--
A|--2--------------0-----0--0-----0--0--

Riste dehleeze … kardenge kurbaan
(follow same patter as rishte pankho … do pal ke mehmaan)

Chords

These are very simple with all down strokes (picked it from the internet), you could try some muting for taste.

(D)Roothe khwaabon ko mana lenge
(D)Kati patango ko thaamenge
(A)Haa haa hai jazba Ho ho hai jazba
(G)Suljha lenge uljhe (A)Rishton ka (D)Manjha
(D)Ha manjha ha manjha ha manjha..

(D)Soyi taqdire jaga denge
(D)Kal ko ambar bhi jhuka denge
(A)Haa haa hai jazba Ho ho hai jazba
(G)Suljha lenge uljhe (A)Rishton ka (D)Manjha
(D)Ha manjha ha manjha ha manjha..

(Bm)Rishte pankho ko hawa denge
(Bm)Rishte dard ko dawa denge
(A)Jeet kabhi (G)Haar kabhi
(D)Ghum to yaaro honge do pal ke mehmaan

(Bm)Riste dehleeze bhi langege
(Bm)Rishte laahu bhi to mangege
(A)Aansu kabhi (G)Moti kabhi
(D)Jaan bhi mange yaaro kardenge kurbaan

(D)Bisre yaaro ko bulalege
(D)Soi umeede jagade ge
(A)Ha ha hai jazba Ho ho hai jazba
(G)Suljha lenge uljhe (A)Rishton ka (D)Manjha
(D)Haa aa manjha..

(D)Ho ho barfeeli aankhon mein
(A)Pighla sa dekhenge hum kal ka (D)Chehra
(D)Ho ho pathreele seene mein
(A)Ubla sa dekhenge hum lawa (D)Gehra
(A)Agan lagi (G)Lagan lagi
(D)Toote na toote na jazba ye toote na
(A)Magan lagi (G)Lagan lagi
(D)Kal hoga kya keh do
(D)Kis ko hai parwah Parwah parwah..

(D)O o roothe khaabon ko mana lenge
(D)Kati patango ko thaamenge
(A)Haa haa hai jazba Ho ho hai jazba
(G)Suljha lenge uljhe (A)Rishton ka (D)Manjha
(D)Hmm manja hmm manja hmm manja…

https://www.acousterr.com/ was very helpful in creating the tab diagrams.

Series Navigation« Guitar Chords: Rafu (Tumhari Sulu)

Leave a comment

Your email address will not be published. Required fields are marked *

This site uses Akismet to reduce spam. Learn how your comment data is processed.