Kisi ki Muskurahaton pe ho Nisar – Anari – Guitar Tabs & Chords

This entry is part 27 of 32 in the series Guitar

Intro

Play the following 2 times.

e|---3----------3----|-------3-3--4-4-1--|
b|-1-------1-1-------|--1-1--------------|
g|-------------------|-------------------|
d|-------------------|-------------------|
a|-------------------|-------------------|
E|-------------------|-------------------|

 

Verse

Kisi ki Muskurahato pe ho nisaar
g|---------------------------------------|
d|----------5-----------5---------(5~)---|
a|-3-6---3------3-6---3-----3-6--3-------|
E|---------------------------------------|
Let the G note (5~) ring...

Kisika dard mil sake to le udhaar
g|---------------------------------------|
d|----------5-----------5---------(3~)---|
a|-3-6---3------3-6---3-----3-6--3-------|
E|---------------------------------------|
Let the F note (3~) ring...

Kisike waaste ho tere dil mein pyaar
g|---------------------------------------|
d|----------3-----------3---------(6~)---|
a|-5-6---5------5-6---5-----5-6--5-------|
E|---------------------------------------|
Let the G# note (6~) ring...

Jeena issi ka naam hai
g|----3-4-3----3-------------------------|
d|--6--------6---6-(5~)------------------|
a|---------------------------------------|
E|---------------------------------------|
Let the G note (5~) ring...

Play the whole above stanza twice

Whistling and music

e|-----3-4-3-----------3-4-3-------------|
b|-4-4-------------4-4-------------------|

e|---3-1-3----3-1-3----------------------|
b|-4--------4---------4-4--3-3--1--0-1---|

Chorus / (individual)

Maana apni jeb se fakeer hain
b|-4-3-4-3--------------3-4--------------|
g|----------5-5--5---5-------------------|
d|-----------------5---------------------|

Phir bhi yaaron dil ke ham ameer hain
b|-4-3-4-3------------3--5---------------|
g|----------5-5--5--6-----5--------------|
d|---------------------------------------|

Repeat twice

Chords

Cm
Kisiki muskuraahaton pe ho nisaar
                                 Bb
Kisika dard mil sake to le udhaar
                                G#
Kisike waaste ho tere dil mein pyaar
              Bb       Cm
Jeena issi ka naam hai
Series Navigation« Chords: Chal Chale Apne Ghar (Woh Lamhe)Chords: Pankaj Awasthi – Door Kahi »

2 thoughts on “Kisi ki Muskurahaton pe ho Nisar – Anari – Guitar Tabs & Chords”

Leave a Reply

Your email address will not be published. Required fields are marked *

You may use these HTML tags and attributes: <a href="" title=""> <abbr title=""> <acronym title=""> <b> <blockquote cite=""> <cite> <code> <del datetime=""> <em> <i> <q cite=""> <strike> <strong>