Mann Kasturi Re – Guitar chords and tabs

This entry is part 36 of 38 in the series Guitar

Another amazing song by the ‘Indian Ocean’ band from an equally riveting movie ‘Masaan’.

The song is in the key of E

Intro Lick

---------5-(chord of E)-----e
---4--5--5------------------B

The E major chord is played with just the E and B strings with strumming pattern – D—-D-U-D-U

Song

Play only the last 3 (thin) strings for the chords

[E] पाट ना पाया मीठा पानी (x2)
ओर-छोर की [B] दूरी [E] रे

[E] मन कस्तूरी रे, जग दस्तूरी रे

[Chorus]
[A] मन कस्तूरी [E] रे, [A] जग दस्तूरी [E] रे
[B] बात हुई ना पूरी [E] रे
(x2)

Interlude #1

e|--------------------------------------
B|-----5-----------5-----------5--------
G|--------3--4--------3--4--------3--4/5
D|--5-----------5-----------5-----------

e|--12+------
B|------12+-

(+ Harmonics)

Play with all normal strings in chords

[E]
खोजे [A] अपनी गंध ना [E]पावे
चादर [A] का पैबंद ना [E]पावे
(x2)

बिखरे [B] बिखरे छंद सा [A] टहले
दोहों में ये [B] बंध ना [E] पावे

[E] नाचे हो के फिरकी लट्टू
(x2)
खोजे अपनी [B] धूरी [E] रे

[Chorus]

[E]
उमर की गिन[A]ती हाथ न [E] आई .. ओ [D][E]
पुरखों [A] ने ये बात ब[E]ताई
उल्टा [A] कर के देख सके [E] तो
अम्बर [A] भी है गहरी [E] खाई
रेखा[A]ओं के पार नज़र [E] को
जिसने [A] फेंका अन्धे मन [E] से
सतरंगी [B] बाज़ार का [A] खोला
दरवाज़ा फिर बिना जतन [A] के … [E]
[E] फिर तो झूमा बावल हो के
[E] फिर तो झूमा बावल हो के
सर पे डाल फि[B]तूरी… [E] रे

[Chorus]

Outro

B|------9-7--------7-5--------5-4--------4-2-
G|-------------------------------------------
D|--7/9---------6/7-------4/6--------2/4-----
(x2)

[A] पाट ना पाया …. [B]मीठा पा[E]नी … [A] (x2)

[Chorus]

Strumming Pattern

D—-D-U-D-U

Namo Namo, Kedarnath – Guitar Tabs and Chords

This entry is part 37 of 38 in the series Guitar

A powerful song in praise of the mighty Shiva from the movie Kedarnath.

Capo on 2, Original Key – E (But with Capo tabbed in Key of D). For the chords, follow the end verses’ chords.

Intro

e-----------------------------------
B-----------------------------------
G--0----2----0----3--2--------------
D--0----0----0----0-----------------
A-----------------------------------
E-----------------------------------

B------------5/7--5--3--2--0------------
G--0----2--------------------2------
D--0----0----0-------------0------------

[Pre-verse]

जय हो, जय हो, शंकरा (भोलेनाथ, शंकरा)
D--0--2--2--2----2--2--2h4-----
A--0-------------------0-------
आदिदेव, शंकरा (हे शिवाय, शंकरा)
D--2--2--4--5--4--2--0
A--0------------------
तेरे जाप के बिना (भोलेनाथ, शंकरा)
D--0--2--2--2----2--2--2h4-----
A--0-------------------0-------
चले ये साँस किस तरह? (हे शिवाय, शंकरा)
D--2--2--4--5--4--2--0
A--0------------------

[Verse Pattern-1]

मेरा कर्म तू ही जाने, क्या बुरा है, क्या भला
B--2/3--3--3--3----2--2--0--0-
G-----------------------------
D--0--------------------------

G--2--4--2--0----0--0--2--
D-------------------------
A--0-------------------0--

(क्या बुरा है, क्या भला, क्या बुरा है, क्या भला)
G--2--4--2--0----0--0--2--
D-------------------------
A--0-------------------0--


तेरे रास्ते पे मैं तो आँख मूँद के चला
B--2/3--3--3--5--3----2--2--0--0-
G-----------------------------
D--0--------------------------

G--2--4--2--0----0--0--4--2-
D---------------------------
A--0-------------------0----
(आँख मूँद के चला, आँख मूँद के चला)
G--2--4--2--0----0--0--4--2-
D---------------------------
A--0-------------------0----

तेरे नाम की जोत ने सारा हर लिया तमस मेरा
G--2--2--2h4--2----
D---------------4--
A--------0---------
(x2)

D-2--2--4--5--4--2--2--0--0-
A-0-----------------------0-

[Chorus]

नमो-नमो जी, शंकरा
भोलेनाथ, शंकरा
e-0--2--2--2----0--2--2-
B-3--3--3--3----3--3--3-
G-2---------------------
D-0-------------------0-
(x2)
जय त्रिलोकनाथ, शंभु
e-0--0--0--0--0--0--0
B-3--3--3--3--3--3--3
A-0------------------
हे शिवाय, शंकरा
e-0--0--0h2--2--0--0----
B-3--3--3----3--3--3--3-
G---------------------2-
D---------------------0-
A-------0---------------

नमो-नमो जी, शंकरा
भोलेनाथ, शंकरा
e-0--2--2--2----0--2--2-
B-3--3--3--3----3--3--3-
G-2---------------------
D-0-------------------0-
(x2)
रुद्रदेव, हे महेश्वरा
e-0--0--0h2--2--0--0----
B-3--3--3----3--3--3--3-
G---------------------2-
D---------------------0-
A-------0---------------

[Verse, Pattern-2]

सृष्टि के जनम से भी पहले तेरा वास था
ये जग रहे या ना रहे, रहेगी तेरी आस्था
G-2h4--4--4--2--0--0--2
A-0-------------------0

B----2--3--5--2--0----
G-4-----------------2-
A-0-----------------0-
(x2)
क्या समय? क्या प्रलय?
B-3-3/5--3--2----3--3/5--3--2-
A-0--------------0------------
दोनों में तेरी महानता, महानता, महानता
G-0--4--4--4----2h4--2--2-
A-0-------------0---------

G-2h4--2--2-
A-0---------

Continue reading Namo Namo, Kedarnath – Guitar Tabs and Chords

Monta Re – Guitar Intro, Tabs and Chords

This entry is part 38 of 38 in the series Guitar

Such a lovely and soothing song from the movie Lootera. Song is in the key of E.

Intro

Starts off with the A key

e|---0h2--2--0-----------------------------
B|-3------------3----2h3--2--0--0h3--3--3/5
G|-----------------------------------------
D|-----------------------------------------
A|-0-----------------0---------------------

(x2)

e|-4-5-------
B|---4-------
G|---4-------
D|---4-------

Now, simply with this B7 leading us to the key of E, where the next lick starts. I think its played in Mandolin. All the close notes are played tremolo-style.

B|-----------8--9-9-9-9----------------
G|-7---7--9----------------------------

e|-------------------------------------
B|----------7--------------------------
G|-9--8--9-----9-9-9--8----------------
D|-----------------------9--7----------

(x2)
Play the entire above 2 tabs twice after the B7 chord

D|-7--9-9-9-9--9-9-9-9-----------------

G|----------6--------------------------
D|-9--7--9-----9-9-9----7--6-----------
A|----------------------------9--------

e|-------------------------------------
B|-7-10-9-7---------------7------------
G|----------9---8-8-8--9---------------
D|-------------------------------------

e|-------------------------------------
B|-7-10-10-9-7---------------------7---
G|-------------9---8--9--8--6--8/9-----

B|---------7---------------------------
G|-8-8-8-9-----------------------------
D|-------------------------------------

e|-------------------------------------
B|-7-10-10-9-7-------------------------
G|-------------9---8--9--8--6--8/9-----

This finishes the intro, now simply strum E (D-D-U-D-U-D) once and below notes all in one go.
D|-4/6--6------------------------------
(x3)

Verse

For the following 2 lines, just strum downstroke once
[B] कागज़ के दो [A] पंख लेके, [B] उड़ा चला जाए रे
[B] जहाँ नहीं [A] जाना था ये, [E] वहीँ चला हाय रे

[B] उमर का ये [A] ताना-बाना समझ ना [F#m] पाए रे
[B] जुबां पे जो [A] मोह-माया, नमक [F#m] लगाये रे
[B] के देखे ना, भाले ना, [A] जाने ना दाये [B] रे

Optional Guitar tabs played for 2nd part of verse

The following is optional and actually played in the song parallel to the rhythm guitar during उमर का … In the song its played along with the vocals.
G|--------------4-4-4-4-4-4------------
D|-1-1-1--2--4-------------------------

e|-------------------------------------
B|----------2--------------------------
G|-4--2--4-----4-4-4--2----------------
D|-----------------------4--2----------

Play the above twice, the second time for जुबां पे…

Verse (contd.)

दिशा हारा कैमोन बोका, मोन्टा [E] रे!

For the above line, below lick can be played leading to ending in E chord on रे!
G|-2--------------------------2--------
D|---4----2-1---1-1-1-2--4------4--2---

The ending E of मोन्टा रे – (D-D-U-D-U-D) and
D|-4/6--6------------------------------
(x4)

Repeat the entire verse again;

Continue reading Monta Re – Guitar Intro, Tabs and Chords