Mann Kasturi Re – Guitar chords and tabs

This entry is part 36 of 36 in the series Guitar

Another amazing song by the ‘Indian Ocean’ band from an equally riveting movie ‘Masaan’.

The song is in the key of E

Intro Lick

---------5-(chord of E)-----e
---4--5--5------------------B

The E major chord is played with just the E and B strings with strumming pattern – D—-D-U-D-U

Song

Play only the last 3 (thin) strings for the chords

[E] पाट ना पाया मीठा पानी (x2)
ओर-छोर की [B] दूरी [E] रे

[E] मन कस्तूरी रे, जग दस्तूरी रे

[Chorus]
[A] मन कस्तूरी [E] रे, [A] जग दस्तूरी [E] रे
[B] बात हुई ना पूरी [E] रे
(x2)

Interlude #1

e|--------------------------------------
B|-----5-----------5-----------5--------
G|--------3--4--------3--4--------3--4/5
D|--5-----------5-----------5-----------

e|--12+------
B|------12+-

(+ Harmonics)

Play with all normal strings in chords

[E]
खोजे [A] अपनी गंध ना [E]पावे
चादर [A] का पैबंद ना [E]पावे
(x2)

बिखरे [B] बिखरे छंद सा [A] टहले
दोहों में ये [B] बंध ना [E] पावे

[E] नाचे हो के फिरकी लट्टू
(x2)
खोजे अपनी [B] धूरी [E] रे

[Chorus]

[E]
उमर की गिन[A]ती हाथ न [E] आई .. ओ [D][E]
पुरखों [A] ने ये बात ब[E]ताई
उल्टा [A] कर के देख सके [E] तो
अम्बर [A] भी है गहरी [E] खाई
रेखा[A]ओं के पार नज़र [E] को
जिसने [A] फेंका अन्धे मन [E] से
सतरंगी [B] बाज़ार का [A] खोला
दरवाज़ा फिर बिना जतन [A] के … [E]
[E] फिर तो झूमा बावल हो के
[E] फिर तो झूमा बावल हो के
सर पे डाल फि[B]तूरी… [E] रे

[Chorus]

Outro

B|------9-7--------7-5--------5-4--------4-2-
G|-------------------------------------------
D|--7/9---------6/7-------4/6--------2/4-----
(x2)

[A] पाट ना पाया …. [B]मीठा पा[E]नी … [A] (x2)

[Chorus]

Strumming Pattern

D—-D-U-D-U